  0
SECTION
  2
HEADER
  9
$ACADVER
  1
AC1015
  9
$ACADMAINTVER
 70
     6
  9
$DWGCODEPAGE
  3
ANSI_1254
  9
$INSBASE
 10
0.0
 20
0.0
 30
0.0
  9
$EXTMIN
 10
0.0
 20
0.0
 30
0.0
  9
$EXTMAX
 10
279.4
 20
215.9
 30
0.0
  9
$LIMMIN
 10
0.0
 20
0.0
  9
$LIMMAX
 10
279.4
 20
215.9
  9
$ORTHOMODE
 70
     0
  9
$REGENMODE
 70
     1
  9
$FILLMODE
 70
     1
  9
$QTEXTMODE
 70
     0
  9
$MIRRTEXT
 70
     1
  9
$LTSCALE
 40
1.0
  9
$ATTMODE
 70
     1
  9
$TEXTSIZE
 40
3.5
  9
$TRACEWID
 40
1.0
  9
$TEXTSTYLE
  7
Standard
  9
$CLAYER
  8
0
  9
$CELTYPE
  6
ByLayer
  9
$CECOLOR
 62
   256
  9
$CELTSCALE
 40
1.0
  9
$DISPSILH
 70
     0
  9
$DIMSCALE
 40
1.0
  9
$DIMASZ
 40
3.5
  9
$DIMEXO
 40
1.0
  9
$DIMDLI
 40
3.75
  9
$DIMRND
 40
0.0
  9
$DIMDLE
 40
0.0
  9
$DIMEXE
 40
1.0
  9
$DIMTP
 40
0.0
  9
$DIMTM
 40
0.0
  9
$DIMTXT
 40
3.5
  9
$DIMCEN
 40
2.5
  9
$DIMTSZ
 40
0.0
  9
$DIMTOL
 70
     0
  9
$DIMLIM
 70
     0
  9
$DIMTIH
 70
     1
  9
$DIMTOH
 70
     1
  9
$DIMSE1
 70
     0
  9
$DIMSE2
 70
     0
  9
$DIMTAD
 70
     1
  9
$DIMZIN
 70
     0
  9
$DIMBLK
  1

  9
$DIMASO
 70
     1
  9
$DIMSHO
 70
     1
  9
$DIMPOST
  1

  9
$DIMAPOST
  1

  9
$DIMALT
 70
     0
  9
$DIMALTD
 70
     3
  9
$DIMALTF
 40
0.0393700787
  9
$DIMLFAC
 40
1.0
  9
$DIMTOFL
 70
     1
  9
$DIMTVP
 40
0.0
  9
$DIMTIX
 70
     0
  9
$DIMSOXD
 70
     0
  9
$DIMSAH
 70
     0
  9
$DIMBLK1
  1

  9
$DIMBLK2
  1

  9
$DIMSTYLE
  2
ISO-25
  9
$DIMCLRD
 70
     0
  9
$DIMCLRE
 70
     0
  9
$DIMCLRT
 70
     0
  9
$DIMTFAC
 40
1.0
  9
$DIMGAP
 40
1.524
  9
$DIMJUST
 70
     0
  9
$DIMSD1
 70
     0
  9
$DIMSD2
 70
     0
  9
$DIMTOLJ
 70
     0
  9
$DIMTZIN
 70
     0
  9
$DIMALTZ
 70
     0
  9
$DIMALTTZ
 70
     0
  9
$DIMUPT
 70
     0
  9
$DIMDEC
 70
     2
  9
$DIMTDEC
 70
     2
  9
$DIMALTU
 70
     2
  9
$DIMALTTD
 70
     3
  9
$DIMTXSTY
  7
Standard
  9
$DIMAUNIT
 70
     0
  9
$DIMADEC
 70
     2
  9
$DIMALTRND
 40
0.0
  9
$DIMAZIN
 70
     0
  9
$DIMDSEP
 70
    44
  9
$DIMATFIT
 70
     3
  9
$DIMFRAC
 70
     0
  9
$DIMLDRBLK
  1

  9
$DIMLUNIT
 70
     2
  9
$DIMLWD
 70
    -2
  9
$DIMLWE
 70
    -2
  9
$DIMTMOVE
 70
     0
  9
$LUNITS
 70
     2
  9
$LUPREC
 70
     2
  9
$SKETCHINC
 40
1.0
  9
$FILLETRAD
 40
10.0
  9
$AUNITS
 70
     0
  9
$AUPREC
 70
     2
  9
$MENU
  1
.
  9
$ELEVATION
 40
0.0
  9
$PELEVATION
 40
0.0
  9
$THICKNESS
 40
0.0
  9
$LIMCHECK
 70
     0
  9
$CHAMFERA
 40
0.0
  9
$CHAMFERB
 40
0.0
  9
$CHAMFERC
 40
0.0
  9
$CHAMFERD
 40
0.0
  9
$SKPOLY
 70
     0
  9
$TDCREATE
 40
2458985.698614618
  9
$TDUCREATE
 40
2458985.573614618
  9
$TDUPDATE
 40
2458985.698614896
  9
$TDUUPDATE
 40
2458985.573614896
  9
$TDINDWG
 40
0.0000000116
  9
$TDUSRTIMER
 40
0.0000000116
  9
$USRTIMER
 70
     1
  9
$ANGBASE
 50
0.0
  9
$ANGDIR
 70
     0
  9
$PDMODE
 70
     0
  9
$PDSIZE
 40
-1.0
  9
$PLINEWID
 40
0.0
  9
$SPLFRAME
 70
     0
  9
$SPLINETYPE
 70
     6
  9
$SPLINESEGS
 70
     8
  9
$HANDSEED
  5
EB
  9
$SURFTAB1
 70
     6
  9
$SURFTAB2
 70
     6
  9
$SURFTYPE
 70
     6
  9
$SURFU
 70
     6
  9
$SURFV
 70
     6
  9
$UCSBASE
  2

  9
$UCSNAME
  2

  9
$UCSORG
 10
0.0
 20
0.0
 30
0.0
  9
$UCSXDIR
 10
1.0
 20
0.0
 30
0.0
  9
$UCSYDIR
 10
0.0
 20
1.0
 30
0.0
  9
$UCSORTHOREF
  2

  9
$UCSORTHOVIEW
 70
     0
  9
$UCSORGTOP
 10
0.0
 20
0.0
 30
0.0
  9
$UCSORGBOTTOM
 10
0.0
 20
0.0
 30
0.0
  9
$UCSORGLEFT
 10
0.0
 20
0.0
 30
0.0
  9
$UCSORGRIGHT
 10
0.0
 20
0.0
 30
0.0
  9
$UCSORGFRONT
 10
0.0
 20
0.0
 30
0.0
  9
$UCSORGBACK
 10
0.0
 20
0.0
 30
0.0
  9
$PUCSBASE
  2

  9
$PUCSNAME
  2

  9
$PUCSORG
 10
0.0
 20
0.0
 30
0.0
  9
$PUCSXDIR
 10
1.0
 20
0.0
 30
0.0
  9
$PUCSYDIR
 10
0.0
 20
1.0
 30
0.0
  9
$PUCSORTHOREF
  2

  9
$PUCSORTHOVIEW
 70
     0
  9
$PUCSORGTOP
 10
0.0
 20
0.0
 30
0.0
  9
$PUCSORGBOTTOM
 10
0.0
 20
0.0
 30
0.0
  9
$PUCSORGLEFT
 10
0.0
 20
0.0
 30
0.0
  9
$PUCSORGRIGHT
 10
0.0
 20
0.0
 30
0.0
  9
$PUCSORGFRONT
 10
0.0
 20
0.0
 30
0.0
  9
$PUCSORGBACK
 10
0.0
 20
0.0
 30
0.0
  9
$USERI1
 70
     0
  9
$USERI2
 70
     0
  9
$USERI3
 70
     0
  9
$USERI4
 70
     0
  9
$USERI5
 70
     0
  9
$USERR1
 40
0.0
  9
$USERR2
 40
0.0
  9
$USERR3
 40
0.0
  9
$USERR4
 40
0.0
  9
$USERR5
 40
0.0
  9
$WORLDVIEW
 70
     1
  9
$SHADEDGE
 70
     3
  9
$SHADEDIF
 70
    70
  9
$TILEMODE
 70
     1
  9
$MAXACTVP
 70
    64
  9
$PINSBASE
 10
0.0
 20
0.0
 30
0.0
  9
$PLIMCHECK
 70
     0
  9
$PEXTMIN
 10
1.0000000000E+20
 20
1.0000000000E+20
 30
1.0000000000E+20
  9
$PEXTMAX
 10
-1.0000000000E+20
 20
-1.0000000000E+20
 30
-1.0000000000E+20
  9
$PLIMMIN
 10
0.0
 20
0.0
  9
$PLIMMAX
 10
420.0
 20
297.0
  9
$UNITMODE
 70
     0
  9
$VISRETAIN
 70
     1
  9
$PLINEGEN
 70
     0
  9
$PSLTSCALE
 70
     1
  9
$TREEDEPTH
 70
  3020
  9
$CMLSTYLE
  2
Standard
  9
$CMLJUST
 70
     0
  9
$CMLSCALE
 40
20.0
  9
$PROXYGRAPHICS
 70
     1
  9
$MEASUREMENT
 70
     1
  9
$CELWEIGHT
370
    -1
  9
$ENDCAPS
280
     0
  9
$JOINSTYLE
280
     0
  9
$LWDISPLAY
290
     1
  9
$INSUNITS
 70
     4
  9
$HYPERLINKBASE
  1

  9
$STYLESHEET
  1

  9
$XEDIT
290
     1
  9
$CEPSNTYPE
380
     0
  9
$PSTYLEMODE
290
     1
  9
$FINGERPRINTGUID
  2
{1c5354cc-0317-4b27-b1a1-6a94901fb441}
  9
$VERSIONGUID
  2
{FAEB1C32-E019-11D5-929B-00C0DF256EC4}
  9
$EXTNAMES
290
     1
  9
$PSVPSCALE
 40
0.0
  9
$OLESTARTUP
290
     0
  0
ENDSEC
  0
SECTION
  2
CLASSES
  0
CLASS
  1
ACDBDICTIONARYWDFLT
  2
AcDbDictionaryWithDefault
  3
ObjectDBX Classes
 90
        0
280
     0
281
     0
  0
CLASS
  1
VISUALSTYLE
  2
AcDbVisualStyle
  3
ObjectDBX Classes
 90
     4095
280
     0
281
     0
  0
CLASS
  1
MATERIAL
  2
AcDbMaterial
  3
ObjectDBX Classes
 90
     1153
280
     0
281
     0
  0
CLASS
  1
SCALE
  2
AcDbScale
  3
ObjectDBX Classes
 90
     1153
280
     0
281
     0
  0
CLASS
  1
TABLESTYLE
  2
AcDbTableStyle
  3
ObjectDBX Classes
 90
     4095
280
     0
281
     0
  0
CLASS
  1
MLEADERSTYLE
  2
AcDbMLeaderStyle
  3
ACDB_MLEADERSTYLE_CLASS
 90
     4095
280
     0
281
     0
  0
CLASS
  1
SUN
  2
AcDbSun
  3
SCENEOE
 90
     1153
280
     0
281
     0
  0
CLASS
  1
ACDBPLACEHOLDER
  2
AcDbPlaceHolder
  3
ObjectDBX Classes
 90
        0
280
     0
281
     0
  0
CLASS
  1
LAYOUT
  2
AcDbLayout
  3
ObjectDBX Classes
 90
        0
280
     0
281
     0
  0
ENDSEC
  0
SECTION
  2
TABLES
  0
TABLE
  2
VPORT
  5
8
330
0
100
AcDbSymbolTable
 70
     1
  0
VPORT
  5
29
330
8
100
AcDbSymbolTableRecord
100
AcDbViewportTableRecord
  2
*Active
 70
     0
 10
0.0
 20
0.0
 11
1.0
 21
1.0
 12
139.7
 22
107.95
 13
0.0
 23
0.0
 14
10.0
 24
10.0
 15
10.0
 25
10.0
 16
0.0
 26
0.0
 36
1.0
 17
0.0
 27
0.0
 37
0.0
 40
215.9
 41
1.2941176471
 42
50.0
 43
0.0
 44
0.0
 50
0.0
 51
0.0
 71
     0
 72
  2000
 73
     1
 74
     3
 75
     0
 76
     0
 77
     0
 78
     0
281
     0
 65
     1
110
0.0
120
0.0
130
0.0
111
1.0
121
0.0
131
0.0
112
0.0
122
1.0
132
0.0
 79
     0
146
0.0
  0
ENDTAB
  0
TABLE
  2
LTYPE
  5
5
330
0
100
AcDbSymbolTable
 70
     6
  0
LTYPE
  5
14
330
5
100
AcDbSymbolTableRecord
100
AcDbLinetypeTableRecord
  2
ByBlock
 70
     0
  3

 72
    65
 73
     0
 40
0.0
  0
LTYPE
  5
15
330
5
100
AcDbSymbolTableRecord
100
AcDbLinetypeTableRecord
  2
ByLayer
 70
     0
  3

 72
    65
 73
     0
 40
0.0
  0
LTYPE
  5
16
330
5
100
AcDbSymbolTableRecord
100
AcDbLinetypeTableRecord
  2
Continuous
 70
     0
  3
Solid line
 72
    65
 73
     0
 40
0.0
  0
LTYPE
  5
6E
330
5
100
AcDbSymbolTableRecord
100
AcDbLinetypeTableRecord
  2
HIDDEN
 70
     0
  3
Hidden __ __ __ __ __ __ __ __ __ __ __ __ __ __
 72
    65
 73
     2
 40
1.905
 49
1.27
 74
     0
 49
-0.635
 74
     0
  0
LTYPE
  5
6F
330
5
100
AcDbSymbolTableRecord
100
AcDbLinetypeTableRecord
  2
PHANTOM
 70
     0
  3
Phantom ______  __  __  ______  __  __  ______
 72
    65
 73
     6
 40
12.7
 49
6.35
 74
     0
 49
-1.27
 74
     0
 49
1.27
 74
     0
 49
-1.27
 74
     0
 49
1.27
 74
     0
 49
-1.27
 74
     0
  0
LTYPE
  5
70
330
5
100
AcDbSymbolTableRecord
100
AcDbLinetypeTableRecord
  2
CENTER
 70
     0
  3
Center ____ _ ____ _ ____ _ ____ _ ____ _ ____
 72
    65
 73
     4
 40
10.16
 49
6.35
 74
     0
 49
-1.27
 74
     0
 49
1.27
 74
     0
 49
-1.27
 74
     0
  0
LTYPE
  5
71
330
5
100
AcDbSymbolTableRecord
100
AcDbLinetypeTableRecord
  2
CENTERX2
 70
     0
  3
Center (2x) ________  __  ________  __  _____
 72
    65
 73
     4
 40
20.32
 49
12.7
 74
     0
 49
-2.54
 74
     0
 49
2.54
 74
     0
 49
-2.54
 74
     0
  0
LTYPE
  5
72
330
5
100
AcDbSymbolTableRecord
100
AcDbLinetypeTableRecord
  2
DOT2
 70
     0
  3
Dot (.5x) ........................................
 72
    65
 73
     2
 40
0.635
 49
0.0
 74
     0
 49
-0.635
 74
     0
  0
ENDTAB
  0
TABLE
  2
LAYER
  5
2
330
0
100
AcDbSymbolTable
 70
    17
  0
LAYER
  5
10
330
2
100
AcDbSymbolTableRecord
100
AcDbLayerTableRecord
  2
0
 70
     0
 62
     7
  6
Continuous
370
    -3
390
F
  0
LAYER
  5
73
330
2
100
AcDbSymbolTableRecord
100
AcDbLayerTableRecord
  2
FORMAT
 70
     0
 62
     7
  6
Continuous
370
    -3
390
F
  0
LAYER
  5
74
330
2
100
AcDbSymbolTableRecord
100
AcDbLayerTableRecord
  2
YARDIMCI_GEOMETRI
 70
     0
 62
    -6
  6
Continuous
290
     0
370
    -3
390
F
  0
LAYER
  5
75
330
2
100
AcDbSymbolTableRecord
100
AcDbLayerTableRecord
  2
SAYFA_CERCEVESI
 70
     0
 62
     7
  6
Continuous
370
    25
390
F
  0
LAYER
  5
76
330
2
100
AcDbSymbolTableRecord
100
AcDbLayerTableRecord
  2
ANTET
 70
     0
 62
     7
  6
Continuous
370
    -3
390
F
  0
LAYER
  5
77
330
2
100
AcDbSymbolTableRecord
100
AcDbLayerTableRecord
  2
OLCU
 70
     0
 62
   150
  6
Continuous
370
    -3
390
F
  0
LAYER
  5
78
330
2
100
AcDbSymbolTableRecord
100
AcDbLayerTableRecord
  2
METIN
 70
     0
 62
    96
  6
Continuous
370
    -3
390
F
  0
LAYER
  5
79
330
2
100
AcDbSymbolTableRecord
100
AcDbLayerTableRecord
  2
BALON
 70
     0
 62
     5
  6
Continuous
370
    -3
390
F
  0
LAYER
  5
7A
330
2
100
AcDbSymbolTableRecord
100
AcDbLayerTableRecord
  2
VURGU
 70
     0
 62
     7
  6
Continuous
370
    -3
390
F
  0
LAYER
  5
7B
330
2
100
AcDbSymbolTableRecord
100
AcDbLayerTableRecord
  2
SILIK
 70
     0
 62
     7
  6
Continuous
370
    -3
390
F
  0
LAYER
  5
7C
330
2
100
AcDbSymbolTableRecord
100
AcDbLayerTableRecord
  2
MODEL
 70
     0
 62
     7
  6
Continuous
370
    -3
390
F
  0
LAYER
  5
7D
330
2
100
AcDbSymbolTableRecord
100
AcDbLayerTableRecord
  2
DETAYLANDıRMA
 70
     0
 62
   190
  6
Continuous
370
    -3
390
F
  0
LAYER
  5
7E
330
2
100
AcDbSymbolTableRecord
100
AcDbLayerTableRecord
  2
TOLERANS
 70
     0
 62
   230
  6
Continuous
370
    -3
390
F
  0
LAYER
  5
7F
330
2
100
AcDbSymbolTableRecord
100
AcDbLayerTableRecord
  2
MERKEZ_CIZGILERI
 70
     0
 62
    30
  6
Continuous
370
    -3
390
F
  0
LAYER
  5
80
330
2
100
AcDbSymbolTableRecord
100
AcDbLayerTableRecord
  2
KESIT-DETAY_CIZGILERI
 70
     0
 62
     7
  6
Continuous
370
    -3
390
F
  0
LAYER
  5
81
330
2
100
AcDbSymbolTableRecord
100
AcDbLayerTableRecord
  2
\U+041E\U+0421\U+0415\U+0412\U+042B\U+0415
 70
     0
 62
     7
  6
Continuous
370
    -3
390
F
  0
LAYER
  5
82
330
2
100
AcDbSymbolTableRecord
100
AcDbLayerTableRecord
  2
\U+0412\U+041E\U+0414\U+042F\U+041D\U+042B\U+0415_\U+0417\U+041D\U+0410\U+041A\U+0418
 70
     0
 62
    11
  6
Continuous
370
    -3
390
F
  0
ENDTAB
  0
TABLE
  2
STYLE
  5
3
330
0
100
AcDbSymbolTable
 70
     1
  0
STYLE
  5
11
330
3
100
AcDbSymbolTableRecord
100
AcDbTextStyleTableRecord
  2
Standard
 70
     0
 40
0.0
 41
1.0
 50
0.0
 71
     0
 42
3.5
  3
txt
  4

  0
ENDTAB
  0
TABLE
  2
VIEW
  5
6
330
0
100
AcDbSymbolTable
 70
     0
  0
ENDTAB
  0
TABLE
  2
UCS
  5
7
330
0
100
AcDbSymbolTable
 70
     0
  0
ENDTAB
  0
TABLE
  2
APPID
  5
9
330
0
100
AcDbSymbolTable
 70
     1
  0
APPID
  5
12
330
9
100
AcDbSymbolTableRecord
100
AcDbRegAppTableRecord
  2
ACAD
 70
     0
  0
ENDTAB
  0
TABLE
  2
DIMSTYLE
  5
A
330
0
100
AcDbSymbolTable
 70
     1
100
AcDbDimStyleTable
  0
DIMSTYLE
105
27
330
A
100
AcDbSymbolTableRecord
100
AcDbDimStyleTableRecord
  2
ISO-25
 70
     0
 41
2.5
 42
0.625
 43
3.75
 44
1.25
 73
     0
 74
     0
 77
     1
 78
     8
140
2.5
141
2.5
143
0.0393700787
147
0.625
171
     3
172
     1
178
     0
271
     2
272
     2
274
     3
278
    44
283
     0
284
     8
340
11
  0
ENDTAB
  0
TABLE
  2
BLOCK_RECORD
  5
1
330
0
100
AcDbSymbolTable
 70
     2
  0
BLOCK_RECORD
  5
1F
330
1
100
AcDbSymbolTableRecord
100
AcDbBlockTableRecord
  2
*Model_Space
340
22
  0
BLOCK_RECORD
  5
1B
330
1
100
AcDbSymbolTableRecord
100
AcDbBlockTableRecord
  2
*Paper_Space
340
1E
  0
BLOCK_RECORD
  5
23
330
1
100
AcDbSymbolTableRecord
100
AcDbBlockTableRecord
  2
*Paper_Space0
340
26
  0
BLOCK_RECORD
  5
88
330
1
100
AcDbSymbolTableRecord
100
AcDbBlockTableRecord
  2
SW_CENTERMARKSYMBOL_0
340
0
102
{BLKREFS
331
93
102
}
  0
ENDTAB
  0
ENDSEC
  0
SECTION
  2
BLOCKS
  0
BLOCK
  5
20
330
1F
100
AcDbEntity
  8
0
100
AcDbBlockBegin
  2
*Model_Space
 70
     0
 10
0.0
 20
0.0
 30
0.0
  3
*Model_Space
  1

  0
ENDBLK
  5
21
330
1F
100
AcDbEntity
  8
0
100
AcDbBlockEnd
  0
BLOCK
  5
1C
330
1B
100
AcDbEntity
 67
     1
  8
0
100
AcDbBlockBegin
  2
*Paper_Space
 70
     0
 10
0.0
 20
0.0
 30
0.0
  3
*Paper_Space
  1

  0
ENDBLK
  5
1D
330
1B
100
AcDbEntity
 67
     1
  8
0
100
AcDbBlockEnd
  0
BLOCK
  5
24
330
23
100
AcDbEntity
  8
0
100
AcDbBlockBegin
  2
*Paper_Space0
 70
     0
 10
0.0
 20
0.0
 30
0.0
  3
*Paper_Space0
  1

  0
ENDBLK
  5
25
330
23
100
AcDbEntity
  8
0
100
AcDbBlockEnd
  0
BLOCK
  5
89
330
88
100
AcDbEntity
  8
0
100
AcDbBlockBegin
  2
SW_CENTERMARKSYMBOL_0
 70
     0
 10
0.0
 20
0.0
 30
0.0
  3
SW_CENTERMARKSYMBOL_0
  1

  0
LINE
  5
8B
330
88
100
AcDbEntity
  8
FORMAT
 62
     0
100
AcDbLine
 10
0.0
 20
0.0
 30
0.0
 11
0.0
 21
2.5
 31
0.0
  0
LINE
  5
8C
330
88
100
AcDbEntity
  8
FORMAT
 62
     0
100
AcDbLine
 10
0.0
 20
0.0
 30
0.0
 11
-2.5
 21
0.0
 31
0.0
  0
LINE
  5
8D
330
88
100
AcDbEntity
  8
FORMAT
 62
     0
100
AcDbLine
 10
0.0
 20
0.0
 30
0.0
 11
0.0
 21
-2.5
 31
0.0
  0
LINE
  5
8E
330
88
100
AcDbEntity
  8
FORMAT
 62
     0
100
AcDbLine
 10
0.0
 20
0.0
 30
0.0
 11
2.5
 21
0.0
 31
0.0
  0
LINE
  5
8F
330
88
100
AcDbEntity
  8
FORMAT
 62
     0
100
AcDbLine
 10
0.0
 20
5.0
 30
0.0
 11
0.0
 21
34.0
 31
0.0
  0
LINE
  5
90
330
88
100
AcDbEntity
  8
FORMAT
 62
     0
100
AcDbLine
 10
-5.0
 20
0.0
 30
0.0
 11
-34.0
 21
0.0
 31
0.0
  0
LINE
  5
91
330
88
100
AcDbEntity
  8
FORMAT
 62
     0
100
AcDbLine
 10
0.0
 20
-5.0
 30
0.0
 11
0.0
 21
-34.0
 31
0.0
  0
LINE
  5
92
330
88
100
AcDbEntity
  8
FORMAT
 62
     0
100
AcDbLine
 10
5.0
 20
0.0
 30
0.0
 11
34.0
 21
0.0
 31
0.0
  0
ENDBLK
  5
8A
330
88
100
AcDbEntity
  8
0
100
AcDbBlockEnd
  0
ENDSEC
  0
SECTION
  2
ENTITIES
  0
CIRCLE
  5
83
330
1F
100
AcDbEntity
  8
0
  6
Continuous
 62
     7
370
    25
100
AcDbCircle
 10
139.395004093
 20
107.5851680021
 30
0.0
 40
31.50000000000001
  0
CIRCLE
  5
84
330
1F
100
AcDbEntity
  8
0
  6
Continuous
 62
     7
370
    25
100
AcDbCircle
 10
139.395004093
 20
107.5851680021
 30
0.0
 40
25.70000000000003
  0
CIRCLE
  5
85
330
1F
100
AcDbEntity
  8
0
  6
Continuous
 62
     7
370
    25
100
AcDbCircle
 10
139.395004093
 20
107.5851680021
 30
0.0
 40
25.59993659791026
  0
CIRCLE
  5
86
330
1F
100
AcDbEntity
  8
0
  6
Continuous
 62
     7
370
    25
100
AcDbCircle
 10
139.395004093
 20
107.5851680021
 30
0.0
 40
20.50006340208974
  0
CIRCLE
  5
87
330
1F
100
AcDbEntity
  8
0
  6
Continuous
 62
     7
370
    25
100
AcDbCircle
 10
139.395004093
 20
107.5851680021
 30
0.0
 40
20.40000000000001
  0
INSERT
  5
93
330
1F
100
AcDbEntity
  8
FORMAT
 62
     7
100
AcDbBlockReference
  2
SW_CENTERMARKSYMBOL_0
 10
139.395004093
 20
107.5851680021
 30
0.0
  0
LINE
  5
94
330
1F
100
AcDbEntity
  8
0
  6
Continuous
 62
     7
370
    25
100
AcDbLine
 10
-28.7716672217
 20
139.0851685088
 30
0.0
 11
-91.5705956911
 21
139.0851685088
 31
0.0
  0
LINE
  5
95
330
1F
100
AcDbEntity
  8
0
  6
Continuous
 62
     7
370
    25
100
AcDbLine
 10
-91.5705956911
 20
76.0851674955
 30
0.0
 11
-28.7716672217
 21
76.0851674955
 31
0.0
  0
ARC
  5
96
330
1F
100
AcDbEntity
  8
0
  6
Continuous
 62
     7
370
    25
100
AcDbCircle
 10
-28.7716675525
 20
137.0851680021
 30
0.0
 40
2.000000000000024
100
AcDbArc
 50
78.5180086453
 51
90.0
  0
ARC
  5
97
330
1F
100
AcDbEntity
  8
0
  6
Continuous
 62
     7
370
    25
100
AcDbCircle
 10
-28.7716675525
 20
78.0851680021
 30
0.0
 40
2.00000000000001
100
AcDbArc
 50
270.0
 51
281.4819913547
  0
LINE
  5
98
330
1F
100
AcDbEntity
  8
0
  6
Continuous
 62
     7
370
    25
100
AcDbLine
 10
-28.3735473101
 20
76.1251920144
 30
0.0
 11
3.2323557491
 21
82.5451431106
 31
0.0
  0
LINE
  5
99
330
1F
100
AcDbEntity
  8
0
  6
Continuous
 62
     7
370
    25
100
AcDbLine
 10
3.2323557491
 20
132.6251928936
 30
0.0
 11
-28.3735473101
 21
139.0451439898
 31
0.0
  0
ARC
  5
9A
330
1F
100
AcDbEntity
  8
0
  6
Continuous
 62
     7
370
    25
100
AcDbCircle
 10
3.6304762841
 20
134.5851680021
 30
0.0
 40
2.0
100
AcDbArc
 50
258.5180086453
 51
270.0
  0
ARC
  5
9B
330
1F
100
AcDbEntity
  8
0
  6
Continuous
 62
     7
370
    25
100
AcDbCircle
 10
3.6304762841
 20
80.5851680021
 30
0.0
 40
2.000000000000009
100
AcDbArc
 50
90.0
 51
101.4819913547
  0
LINE
  5
9C
330
1F
100
AcDbEntity
  8
0
  6
Continuous
 62
     7
370
    25
100
AcDbLine
 10
58.4294028188
 20
132.5851683746
 30
0.0
 11
3.6304756607
 21
132.5851683746
 31
0.0
  0
LINE
  5
9D
330
1F
100
AcDbEntity
  8
0
  6
Continuous
 62
     7
370
    25
100
AcDbLine
 10
3.6304756607
 20
82.5851676296
 30
0.0
 11
58.4294028188
 21
82.5851676296
 31
0.0
  0
LINE
  5
9E
330
1F
100
AcDbEntity
  8
0
  6
Continuous
 62
     7
370
    25
100
AcDbLine
 10
-91.5705956911
 20
139.0851685088
 30
0.0
 11
-91.5705956911
 21
76.0851674955
 31
0.0
  0
LINE
  5
9F
330
1F
100
AcDbEntity
  8
0
  6
Continuous
 62
     7
370
    25
100
AcDbLine
 10
58.4294028188
 20
132.5851683746
 30
0.0
 11
58.4294028188
 21
82.5851676296
 31
0.0
  0
LINE
  5
A0
330
1F
100
AcDbEntity
  8
0
  6
Continuous
 62
     1
370
    25
100
AcDbLine
 10
-28.7716672217
 20
139.0851685088
 30
0.0
 11
-28.7716672217
 21
76.0851674955
 31
0.0
  0
LINE
  5
A1
330
1F
100
AcDbEntity
  8
0
  6
Continuous
 62
     1
370
    25
100
AcDbLine
 10
-28.3735473101
 20
139.0451439898
 30
0.0
 11
-28.3735473101
 21
76.1251920144
 31
0.0
  0
LINE
  5
A2
330
1F
100
AcDbEntity
  8
0
  6
Continuous
 62
     1
370
    25
100
AcDbLine
 10
3.2323557491
 20
132.6251928936
 30
0.0
 11
3.2323557491
 21
82.5451431106
 31
0.0
  0
LINE
  5
A3
330
1F
100
AcDbEntity
  8
0
  6
Continuous
 62
     1
370
    25
100
AcDbLine
 10
3.6304756607
 20
132.5851683746
 30
0.0
 11
3.6304756607
 21
82.5851676296
 31
0.0
  0
LINE
  5
A4
330
1F
100
AcDbEntity
  8
0
  6
Continuous
 62
     7
370
    25
100
AcDbLine
 10
309.702346066
 20
76.0851674955
 30
0.0
 11
372.5012745354
 21
76.0851674955
 31
0.0
  0
LINE
  5
A5
330
1F
100
AcDbEntity
  8
0
  6
Continuous
 62
     7
370
    25
100
AcDbLine
 10
372.5012745354
 20
139.0851685088
 30
0.0
 11
309.702346066
 21
139.0851685088
 31
0.0
  0
ARC
  5
A6
330
1F
100
AcDbEntity
  8
0
  6
Continuous
 62
     7
370
    25
100
AcDbCircle
 10
309.7023463969
 20
78.0851680021
 30
0.0
 40
2.000000000000012
100
AcDbArc
 50
258.5180086453
 51
270.0
  0
ARC
  5
A7
330
1F
100
AcDbEntity
  8
0
  6
Continuous
 62
     7
370
    25
100
AcDbCircle
 10
309.7023463969
 20
137.0851680021
 30
0.0
 40
2.000000000000025
100
AcDbArc
 50
90.0
 51
101.4819913547
  0
LINE
  5
A8
330
1F
100
AcDbEntity
  8
0
  6
Continuous
 62
     7
370
    25
100
AcDbLine
 10
309.3042261544
 20
139.0451439898
 30
0.0
 11
277.6983230952
 21
132.6251928936
 31
0.0
  0
LINE
  5
A9
330
1F
100
AcDbEntity
  8
0
  6
Continuous
 62
     7
370
    25
100
AcDbLine
 10
277.6983230952
 20
82.5451431106
 30
0.0
 11
309.3042261544
 21
76.1251920144
 31
0.0
  0
ARC
  5
AA
330
1F
100
AcDbEntity
  8
0
  6
Continuous
 62
     7
370
    25
100
AcDbCircle
 10
277.3002025602
 20
80.5851680021
 30
0.0
 40
2.000000000000012
100
AcDbArc
 50
78.5180086453
 51
90.0
  0
ARC
  5
AB
330
1F
100
AcDbEntity
  8
0
  6
Continuous
 62
     7
370
    25
100
AcDbCircle
 10
277.3002025602
 20
134.5851680021
 30
0.0
 40
2.0
100
AcDbArc
 50
270.0
 51
281.4819913547
  0
LINE
  5
AC
330
1F
100
AcDbEntity
  8
0
  6
Continuous
 62
     7
370
    25
100
AcDbLine
 10
222.5012760255
 20
82.5851676296
 30
0.0
 11
277.3002031836
 21
82.5851676296
 31
0.0
  0
LINE
  5
AD
330
1F
100
AcDbEntity
  8
0
  6
Continuous
 62
     7
370
    25
100
AcDbLine
 10
277.3002031836
 20
132.5851683746
 30
0.0
 11
222.5012760255
 21
132.5851683746
 31
0.0
  0
LINE
  5
AE
330
1F
100
AcDbEntity
  8
0
  6
Continuous
 62
     7
370
    25
100
AcDbLine
 10
372.5012745354
 20
107.5851680021
 30
0.0
 11
372.5012745354
 21
139.0851685088
 31
0.0
  0
LINE
  5
AF
330
1F
100
AcDbEntity
  8
0
  6
Continuous
 62
     7
370
    25
100
AcDbLine
 10
372.5012745354
 20
76.0851674955
 30
0.0
 11
372.5012745354
 21
107.5851680021
 31
0.0
  0
LINE
  5
B0
330
1F
100
AcDbEntity
  8
0
  6
Continuous
 62
     7
370
    25
100
AcDbLine
 10
222.5012760255
 20
107.5851680021
 30
0.0
 11
222.5012760255
 21
132.5851683746
 31
0.0
  0
LINE
  5
B1
330
1F
100
AcDbEntity
  8
0
  6
Continuous
 62
     7
370
    25
100
AcDbLine
 10
222.5012760255
 20
82.5851676296
 30
0.0
 11
222.5012760255
 21
107.5851680021
 31
0.0
  0
LINE
  5
B2
330
1F
100
AcDbEntity
  8
0
  6
Continuous
 62
     1
370
    25
100
AcDbLine
 10
309.702346066
 20
107.5851680021
 30
0.0
 11
309.702346066
 21
139.0851685088
 31
0.0
  0
LINE
  5
B3
330
1F
100
AcDbEntity
  8
0
  6
Continuous
 62
     1
370
    25
100
AcDbLine
 10
309.702346066
 20
76.0851674955
 30
0.0
 11
309.702346066
 21
107.5851680021
 31
0.0
  0
LINE
  5
B4
330
1F
100
AcDbEntity
  8
0
  6
Continuous
 62
     1
370
    25
100
AcDbLine
 10
309.3042261544
 20
107.5851680021
 30
0.0
 11
309.3042261544
 21
139.0451439898
 31
0.0
  0
LINE
  5
B5
330
1F
100
AcDbEntity
  8
0
  6
Continuous
 62
     1
370
    25
100
AcDbLine
 10
309.3042261544
 20
76.1251920144
 30
0.0
 11
309.3042261544
 21
107.5851680021
 31
0.0
  0
LINE
  5
B6
330
1F
100
AcDbEntity
  8
0
  6
Continuous
 62
     1
370
    25
100
AcDbLine
 10
277.6983230952
 20
107.5851680021
 30
0.0
 11
277.6983230952
 21
132.6251928936
 31
0.0
  0
LINE
  5
B7
330
1F
100
AcDbEntity
  8
0
  6
Continuous
 62
     1
370
    25
100
AcDbLine
 10
277.6983230952
 20
82.5451431106
 30
0.0
 11
277.6983230952
 21
107.5851680021
 31
0.0
  0
LINE
  5
B8
330
1F
100
AcDbEntity
  8
0
  6
Continuous
 62
     1
370
    25
100
AcDbLine
 10
277.3002031836
 20
107.5851680021
 30
0.0
 11
277.3002031836
 21
132.5851683746
 31
0.0
  0
LINE
  5
B9
330
1F
100
AcDbEntity
  8
0
  6
Continuous
 62
     1
370
    25
100
AcDbLine
 10
277.3002031836
 20
82.5851676296
 30
0.0
 11
277.3002031836
 21
107.5851680021
 31
0.0
  0
LINE
  5
BA
330
1F
100
AcDbEntity
  8
0
  6
Continuous
 62
     7
370
    25
100
AcDbLine
 10
170.8950045997
 20
276.4006252127
 30
0.0
 11
170.8950045997
 21
339.1995536821
 31
0.0
  0
LINE
  5
BB
330
1F
100
AcDbEntity
  8
0
  6
Continuous
 62
     7
370
    25
100
AcDbLine
 10
107.8950035864
 20
339.1995536821
 30
0.0
 11
107.8950035864
 21
276.4006252127
 31
0.0
  0
ARC
  5
BC
330
1F
100
AcDbEntity
  8
0
  6
Continuous
 62
     7
370
    25
100
AcDbCircle
 10
168.895004093
 20
276.4006255436
 30
0.0
 40
2.0
100
AcDbArc
 50
348.5180086453
 51
0.0
  0
ARC
  5
BD
330
1F
100
AcDbEntity
  8
0
  6
Continuous
 62
     7
370
    25
100
AcDbCircle
 10
109.895004093
 20
276.4006255436
 30
0.0
 40
2.000000000000012
100
AcDbArc
 50
180.0
 51
191.4819913547
  0
LINE
  5
BE
330
1F
100
AcDbEntity
  8
0
  6
Continuous
 62
     7
370
    25
100
AcDbLine
 10
107.9350281054
 20
276.0025053011
 30
0.0
 11
114.3549792016
 21
244.3966022419
 31
0.0
  0
LINE
  5
BF
330
1F
100
AcDbEntity
  8
0
  6
Continuous
 62
     7
370
    25
100
AcDbLine
 10
164.4350289845
 20
244.3966022419
 30
0.0
 11
170.8549800807
 21
276.0025053011
 31
0.0
  0
ARC
  5
C0
330
1F
100
AcDbEntity
  8
0
  6
Continuous
 62
     7
370
    25
100
AcDbCircle
 10
166.395004093
 20
243.998481707
 30
0.0
 40
2.000000000000025
100
AcDbArc
 50
168.5180086453
 51
180.0
  0
ARC
  5
C1
330
1F
100
AcDbEntity
  8
0
  6
Continuous
 62
     7
370
    25
100
AcDbCircle
 10
112.395004093
 20
243.998481707
 30
0.0
 40
2.000000000000012
100
AcDbArc
 50
0.0
 51
11.4819913547
  0
LINE
  5
C2
330
1F
100
AcDbEntity
  8
0
  6
Continuous
 62
     7
370
    25
100
AcDbLine
 10
164.3950044656
 20
189.1995551722
 30
0.0
 11
164.3950044656
 21
243.9984823304
 31
0.0
  0
LINE
  5
C3
330
1F
100
AcDbEntity
  8
0
  6
Continuous
 62
     7
370
    25
100
AcDbLine
 10
114.3950037205
 20
243.9984823304
 30
0.0
 11
114.3950037205
 21
189.1995551722
 31
0.0
  0
LINE
  5
C4
330
1F
100
AcDbEntity
  8
0
  6
Continuous
 62
     7
370
    25
100
AcDbLine
 10
170.8950045997
 20
339.1995536821
 30
0.0
 11
107.8950035864
 21
339.1995536821
 31
0.0
  0
LINE
  5
C5
330
1F
100
AcDbEntity
  8
0
  6
Continuous
 62
     7
370
    25
100
AcDbLine
 10
164.3950044656
 20
189.1995551722
 30
0.0
 11
114.3950037205
 21
189.1995551722
 31
0.0
  0
LINE
  5
C6
330
1F
100
AcDbEntity
  8
0
  6
Continuous
 62
     1
370
    25
100
AcDbLine
 10
170.8950045997
 20
276.4006252127
 30
0.0
 11
107.8950035864
 21
276.4006252127
 31
0.0
  0
LINE
  5
C7
330
1F
100
AcDbEntity
  8
0
  6
Continuous
 62
     1
370
    25
100
AcDbLine
 10
170.8549800807
 20
276.0025053011
 30
0.0
 11
107.9350281054
 21
276.0025053011
 31
0.0
  0
LINE
  5
C8
330
1F
100
AcDbEntity
  8
0
  6
Continuous
 62
     1
370
    25
100
AcDbLine
 10
164.4350289845
 20
244.3966022419
 30
0.0
 11
114.3549792016
 21
244.3966022419
 31
0.0
  0
LINE
  5
C9
330
1F
100
AcDbEntity
  8
0
  6
Continuous
 62
     1
370
    25
100
AcDbLine
 10
164.3950044656
 20
243.9984823304
 30
0.0
 11
114.3950037205
 21
243.9984823304
 31
0.0
  0
LINE
  5
CA
330
1F
100
AcDbEntity
  8
0
  6
Continuous
 62
     7
370
    25
100
AcDbLine
 10
107.8950035864
 20
-71.9835124394
 30
0.0
 11
107.8950035864
 21
-134.7824409089
 31
0.0
  0
LINE
  5
CB
330
1F
100
AcDbEntity
  8
0
  6
Continuous
 62
     7
370
    25
100
AcDbLine
 10
170.8950045997
 20
-134.7824409089
 30
0.0
 11
170.8950045997
 21
-71.9835124394
 31
0.0
  0
ARC
  5
CC
330
1F
100
AcDbEntity
  8
0
  6
Continuous
 62
     7
370
    25
100
AcDbCircle
 10
109.895004093
 20
-71.9835127703
 30
0.0
 40
2.000000000000009
100
AcDbArc
 50
168.5180086453
 51
180.0
  0
ARC
  5
CD
330
1F
100
AcDbEntity
  8
0
  6
Continuous
 62
     7
370
    25
100
AcDbCircle
 10
168.895004093
 20
-71.9835127703
 30
0.0
 40
2.0
100
AcDbArc
 50
0.0
 51
11.4819913547
  0
LINE
  5
CE
330
1F
100
AcDbEntity
  8
0
  6
Continuous
 62
     7
370
    25
100
AcDbLine
 10
170.8549800807
 20
-71.5853925279
 30
0.0
 11
164.4350289845
 21
-39.9794894687
 31
0.0
  0
LINE
  5
CF
330
1F
100
AcDbEntity
  8
0
  6
Continuous
 62
     7
370
    25
100
AcDbLine
 10
114.3549792016
 20
-39.9794894687
 30
0.0
 11
107.9350281054
 21
-71.5853925279
 31
0.0
  0
ARC
  5
D0
330
1F
100
AcDbEntity
  8
0
  6
Continuous
 62
     7
370
    25
100
AcDbCircle
 10
112.395004093
 20
-39.5813689337
 30
0.0
 40
2.000000000000009
100
AcDbArc
 50
348.5180086453
 51
0.0
  0
ARC
  5
D1
330
1F
100
AcDbEntity
  8
0
  6
Continuous
 62
     7
370
    25
100
AcDbCircle
 10
166.395004093
 20
-39.5813689337
 30
0.0
 40
2.000000000000023
100
AcDbArc
 50
180.0
 51
191.4819913547
  0
LINE
  5
D2
330
1F
100
AcDbEntity
  8
0
  6
Continuous
 62
     7
370
    25
100
AcDbLine
 10
114.3950037205
 20
15.217557601
 30
0.0
 11
114.3950037205
 21
-39.5813695571
 31
0.0
  0
LINE
  5
D3
330
1F
100
AcDbEntity
  8
0
  6
Continuous
 62
     7
370
    25
100
AcDbLine
 10
164.3950044656
 20
-39.5813695571
 30
0.0
 11
164.3950044656
 21
15.217557601
 31
0.0
  0
LINE
  5
D4
330
1F
100
AcDbEntity
  8
0
  6
Continuous
 62
     7
370
    25
100
AcDbLine
 10
107.8950035864
 20
-134.7824409089
 30
0.0
 11
170.8950045997
 21
-134.7824409089
 31
0.0
  0
LINE
  5
D5
330
1F
100
AcDbEntity
  8
0
  6
Continuous
 62
     7
370
    25
100
AcDbLine
 10
114.3950037205
 20
15.217557601
 30
0.0
 11
164.3950044656
 21
15.217557601
 31
0.0
  0
LINE
  5
D6
330
1F
100
AcDbEntity
  8
0
  6
Continuous
 62
     1
370
    25
100
AcDbLine
 10
107.8950035864
 20
-71.9835124394
 30
0.0
 11
170.8950045997
 21
-71.9835124394
 31
0.0
  0
LINE
  5
D7
330
1F
100
AcDbEntity
  8
0
  6
Continuous
 62
     1
370
    25
100
AcDbLine
 10
107.9350281054
 20
-71.5853925279
 30
0.0
 11
170.8549800807
 21
-71.5853925279
 31
0.0
  0
LINE
  5
D8
330
1F
100
AcDbEntity
  8
0
  6
Continuous
 62
     1
370
    25
100
AcDbLine
 10
114.3549792016
 20
-39.9794894687
 30
0.0
 11
164.4350289845
 21
-39.9794894687
 31
0.0
  0
LINE
  5
D9
330
1F
100
AcDbEntity
  8
0
  6
Continuous
 62
     1
370
    25
100
AcDbLine
 10
114.3950037205
 20
-39.5813695571
 30
0.0
 11
164.3950044656
 21
-39.5813695571
 31
0.0
  0
LINE
  5
DA
330
1F
100
AcDbEntity
  8
0
  6
Continuous
 62
     7
370
    25
100
AcDbLine
 10
306.5540123711
 20
0.9392926195
 30
0.0
 11
262.1484641991
 21
26.5740699276
 31
0.0
  0
LINE
  5
DB
330
1F
100
AcDbEntity
  8
0
  6
Continuous
 62
     7
370
    25
100
AcDbLine
 10
230.6510232205
 20
-27.9870083132
 30
0.0
 11
275.0565713925
 21
-53.6217856213
 31
0.0
  0
SPLINE
  5
DC
330
1F
100
AcDbEntity
  8
0
  6
Continuous
 62
     7
370
    25
100
AcDbSpline
210
0.0
220
0.0
230
1.0
 70
     8
 71
     3
 72
    11
 73
     7
 74
     0
 42
0.000000001
 43
0.00000001
 40
0.0
 40
0.0
 40
0.0
 40
0.0
 40
0.0856236860839244
 40
0.4570022598531407
 40
0.8260138402494968
 40
1.0
 40
1.0
 40
1.0
 40
1.0
 10
308.9527403265166
 20
-0.8978987966701095
 30
0.0
 10
308.8911929560181
 20
-0.8334751299228886
 30
0.0
 10
308.5626940476875
 20
-0.4896244661866181
 30
0.0
 10
307.9002843363015
 20
0.0448679423727602
 30
0.0
 10
307.1432873720263
 20
0.6015071325835217
 30
0.0
 10
306.6557404825783
 20
0.8692939516770637
 30
0.0
 10
306.4995217643007
 20
0.955097624217742
 30
0.0
  0
SPLINE
  5
DD
330
1F
100
AcDbEntity
  8
0
  6
Continuous
 62
     7
370
    25
100
AcDbSpline
210
0.0
220
0.0
230
1.0
 70
     8
 71
     3
 72
    10
 73
     6
 74
     0
 42
0.000000001
 43
0.00000001
 40
0.0
 40
0.0
 40
0.0
 40
0.0
 40
0.3695324619278595
 40
0.7484985269537817
 40
1.0
 40
1.0
 40
1.0
 40
1.0
 10
275.0772845928705
 20
-53.63218152966365
 30
0.0
 10
275.3999871677517
 20
-53.80605217447491
 30
0.0
 10
276.0536304246464
 20
-54.15823211786277
 30
0.0
 10
276.9774141772141
 20
-54.53394655227711
 30
0.0
 10
277.5868670374019
 20
-54.70500521409991
 30
0.0
 10
277.8299854897145
 20
-54.77324267729635
 30
0.0
  0
LINE
  5
DE
330
1F
100
AcDbEntity
  8
0
  6
Continuous
 62
     7
370
    25
100
AcDbLine
 10
277.7808909966
 20
-54.7715725702
 30
0.0
 11
302.8449402125
 21
-61.9046969529
 31
0.0
  0
LINE
  5
DF
330
1F
100
AcDbEntity
  8
0
  6
Continuous
 62
     7
370
    25
100
AcDbLine
 10
327.6232772594
 20
-18.9827073955
 30
0.0
 11
308.9120837642
 21
-0.8449217579
 31
0.0
  0
LINE
  5
E0
330
1F
100
AcDbEntity
  8
0
  6
Continuous
 62
     7
370
    25
100
AcDbLine
 10
364.9647436177
 20
-40.2858552901
 30
0.0
 11
326.9763916234
 21
-18.3556464814
 31
0.0
  0
LINE
  5
E1
330
1F
100
AcDbEntity
  8
0
  6
Continuous
 62
     7
370
    25
100
AcDbLine
 10
301.9784240562
 20
-61.6580898437
 30
0.0
 11
339.9667760505
 21
-83.5882986524
 31
0.0
  0
LWPOLYLINE
  5
E2
330
1F
100
AcDbEntity
  8
0
  6
Continuous
 62
     7
370
    25
100
AcDbPolyline
 90
      103
 70
   128
 43
0.0
 10
224.1258797442
 20
-13.5648971608
 10
224.1681266914
 20
-11.9570982558
 10
224.2947042142
 20
-10.3066228619
 10
224.5051355263
 20
-8.6197296391
 10
224.7986185205
 20
-6.9028198035
 10
225.1740442078
 20
-5.162403764
 10
225.6299848637
 20
-3.4050860069
 10
226.1647124675
 20
-1.637531447
 10
226.776198702
 20
0.1335558651
 10
227.4621228564
 20
1.9014559367
 10
228.2198849971
 20
3.65946325
 10
229.0466086015
 20
5.4009080547
 10
229.939160315
 20
7.1191875458
 10
230.8941512674
 20
8.8077810717
 10
231.9079607811
 20
10.4602835934
 10
232.9767416391
 20
12.0704254554
 10
234.0964411584
 20
13.6321012813
 10
235.262811727
 20
15.1393867033
 10
236.4714285843
 20
16.5865638359
 10
237.717706285
 20
17.9681414266
 10
238.996918455
 20
19.2788799493
 10
240.3042116214
 20
20.5138071926
 10
241.6346272733
 20
21.6682386001
 10
242.9831189841
 20
22.7377947592
 10
244.3445708509
 20
23.7184181298
 10
245.7138187733
 20
24.6063898914
 10
247.0856686463
 20
25.3983419659
 10
248.4549165687
 20
26.0912702051
 10
249.8163684354
 20
26.682545701
 10
251.1648601463
 20
27.169924931
 10
252.4952757982
 20
27.5515587391
 10
253.8025689646
 20
27.8260000579
 10
255.0817811346
 20
27.992208469
 10
256.3280588353
 20
28.0495524832
 10
257.5366756926
 20
27.9978146713
 10
258.7030462612
 20
27.8371920433
 10
259.8227457805
 20
27.5682937649
 10
260.8915266385
 20
27.1921400153
 10
261.9053361522
 20
26.7101570429
 10
262.8603271046
 20
26.1241726009
 10
263.7528788181
 20
25.4364113831
 10
264.5796024225
 20
24.6494813346
 10
265.3373645631
 20
23.7663675663
 10
266.0232887176
 20
22.7904186663
 10
266.6347749521
 20
21.7253383327
 10
267.1695025559
 20
20.5751671227
 10
267.6254432118
 20
19.3442672418
 10
268.0008688991
 20
18.0373084745
 10
268.2943518933
 20
16.6592468914
 10
268.5047832053
 20
15.21531249
 10
268.6313607281
 20
13.7109803932
 10
268.6736076754
 20
12.1519587752
 10
268.6313607281
 20
10.5441598702
 10
268.5047832053
 20
8.8936844763
 10
268.2943518933
 20
7.2067912534
 10
268.0008688991
 20
5.4898814179
 10
267.6254432118
 20
3.7494653784
 10
267.1695025559
 20
1.9921476213
 10
266.6347749521
 20
0.2245930614
 10
266.0232887176
 20
-1.5464942508
 10
265.3373645631
 20
-3.3143943224
 10
264.5796024225
 20
-5.0724016356
 10
263.7528788181
 20
-6.8138464404
 10
262.8603271046
 20
-8.5321259314
 10
261.9053361522
 20
-10.2207194574
 10
260.8915266385
 20
-11.8732219791
 10
259.8227457805
 20
-13.483363841
 10
258.7030462612
 20
-15.0450396669
 10
257.5366756926
 20
-16.5523250889
 10
256.3280588353
 20
-17.9995022215
 10
255.0817811346
 20
-19.3810798122
 10
253.8025689646
 20
-20.691818335
 10
252.4952757982
 20
-21.9267455783
 10
251.1648601463
 20
-23.0811769858
 10
249.8163684354
 20
-24.1507331448
 10
248.4549165687
 20
-25.1313565155
 10
247.0856686463
 20
-26.0193282771
 10
245.7138187733
 20
-26.8112803515
 10
244.3445708509
 20
-27.5042085908
 10
242.9831189841
 20
-28.0954840867
 10
241.6346272733
 20
-28.5828633166
 10
240.3042116214
 20
-28.9644971248
 10
238.996918455
 20
-29.2389384436
 10
237.717706285
 20
-29.4051468547
 10
236.4714285843
 20
-29.4624908688
 10
235.262811727
 20
-29.410753057
 10
234.0964411584
 20
-29.2501304289
 10
232.9767416391
 20
-28.9812321505
 10
231.9079607811
 20
-28.605078401
 10
230.8941512674
 20
-28.1230954286
 10
229.939160315
 20
-27.5371109866
 10
229.0466086015
 20
-26.8493497687
 10
228.2198849971
 20
-26.0624197202
 10
227.4621228564
 20
-25.1793059519
 10
226.776198702
 20
-24.2033570519
 10
226.1647124675
 20
-23.1382767184
 10
225.6299848637
 20
-21.9881055084
 10
225.1740442078
 20
-20.7572056275
 10
224.7986185205
 20
-19.4502468602
 10
224.5051355263
 20
-18.0721852771
 10
224.2947042142
 20
-16.6282508756
 10
224.1681266914
 20
-15.1239187788
 10
224.1258797442
 20
-13.5648971608
  0
LWPOLYLINE
  5
E3
330
1F
100
AcDbEntity
  8
0
  6
Continuous
 62
     7
370
    25
100
AcDbPolyline
 90
       93
 70
   128
 43
0.0
 10
228.2271000107
 20
-11.1973130964
 10
228.2694641789
 20
-9.7407830092
 10
228.3963604372
 20
-8.2421304492
 10
228.6071974127
 20
-6.7083431595
 10
228.9009899228
 20
-5.1465727258
 10
229.2763708291
 20
-3.5641002619
 10
229.7315884031
 20
-1.9683039945
 10
230.2645221317
 20
-0.3666237135
 10
230.8726840335
 20
1.2334707876
 10
231.5532410502
 20
2.8245211547
 10
232.3030189973
 20
4.3991078492
 10
233.1185223204
 20
5.9498896902
 10
233.9959485835
 20
7.4696365535
 10
234.9312069083
 20
8.9512628297
 10
235.9199370715
 20
10.3878605027
 10
236.9575292616
 20
11.772731848
 10
238.039145152
 20
13.0994183279
 10
239.1597422675
 20
14.3617374723
 10
240.3140957159
 20
15.553799986
 10
241.4968228838
 20
16.6700498622
 10
242.7024101071
 20
17.7052812989
 10
243.9252355561
 20
18.654670162
 10
245.1595986225
 20
19.513787908
 10
246.3997437098
 20
20.2786290059
 10
247.639888797
 20
20.9456289481
 10
248.8742518635
 20
21.5116764632
 10
250.0970773125
 20
21.9741318116
 10
251.3026645358
 20
22.3308417546
 10
252.4853917036
 20
22.5801395999
 10
253.6397451521
 20
22.7208652085
 10
254.7603422675
 20
22.7523599541
 10
255.841958158
 20
22.6744805996
 10
256.879550348
 20
22.4875876973
 10
257.8682805112
 20
22.1925535718
 10
258.803538836
 20
21.7907535727
 10
259.6809650992
 20
21.2840615094
 10
260.4964684223
 20
20.6748397636
 10
261.2462463694
 20
19.9659282604
 10
261.9268033861
 20
19.1606322995
 10
262.5349652879
 20
18.2627065841
 10
263.0678990164
 20
17.2763384888
 10
263.5231165905
 20
16.2061252451
 10
263.8984974968
 20
15.0570583503
 10
264.1922900068
 20
13.8344935285
 10
264.4031269823
 20
12.5441334292
 10
264.5300232407
 20
11.1919921705
 10
264.5723874089
 20
9.7843747108
 10
264.5300232407
 20
8.3278446235
 10
264.4031269823
 20
6.8291920636
 10
264.1922900068
 20
5.2954047739
 10
263.8984974968
 20
3.7336343401
 10
263.5231165905
 20
2.1511618762
 10
263.0678990164
 20
0.5553656089
 10
262.5349652879
 20
-1.0463146721
 10
261.9268033861
 20
-2.6464091733
 10
261.2462463694
 20
-4.2374595404
 10
260.4964684223
 20
-5.8120462348
 10
259.6809650992
 20
-7.3628280759
 10
258.803538836
 20
-8.8825749392
 10
257.8682805112
 20
-10.3642012153
 10
256.879550348
 20
-11.8007988883
 10
255.841958158
 20
-13.1856702336
 10
254.7603422675
 20
-14.5123567136
 10
253.6397451521
 20
-15.7746758579
 10
252.4853917036
 20
-16.9667383717
 10
251.3026645358
 20
-18.0829882478
 10
250.0970773125
 20
-19.1182196846
 10
248.8742518635
 20
-20.0676085477
 10
247.639888797
 20
-20.9267262937
 10
246.3997437098
 20
-21.6915673915
 10
245.1595986225
 20
-22.3585673338
 10
243.9252355561
 20
-22.9246148489
 10
242.7024101071
 20
-23.3870701972
 10
241.4968228838
 20
-23.7437801402
 10
240.3140957159
 20
-23.9930779856
 10
239.1597422675
 20
-24.1338035941
 10
238.039145152
 20
-24.1652983397
 10
236.9575292616
 20
-24.0874189852
 10
235.9199370715
 20
-23.9005260829
 10
234.9312069083
 20
-23.6054919575
 10
233.9959485835
 20
-23.2036919584
 10
233.1185223204
 20
-22.6969998951
 10
232.3030189973
 20
-22.0877781492
 10
231.5532410502
 20
-21.378866646
 10
230.8726840335
 20
-20.5735706852
 10
230.2645221317
 20
-19.6756449698
 10
229.7315884031
 20
-18.6892768745
 10
229.2763708291
 20
-17.6190636308
 10
228.9009899228
 20
-16.4699967359
 10
228.6071974127
 20
-15.2474319141
 10
228.3963604372
 20
-13.9570718148
 10
228.2694641789
 20
-12.6049305562
 10
228.2271000107
 20
-11.1973130964
  0
LINE
  5
E4
330
1F
100
AcDbEntity
  8
0
  6
Continuous
 62
     7
370
    25
100
AcDbLine
 10
308.9120837642
 20
-0.8449217579
 30
0.0
 11
308.9537775341
 21
-0.8855495978
 31
0.0
  0
LINE
  5
E5
330
1F
100
AcDbEntity
  8
0
  6
Continuous
 62
     7
370
    25
100
AcDbLine
 10
277.8209094293
 20
-54.7828813666
 30
0.0
 11
277.7808909966
 21
-54.7715725702
 31
0.0
  0
LWPOLYLINE
  5
E6
330
1F
100
AcDbEntity
  8
0
  6
Continuous
 62
     7
370
    25
100
AcDbPolyline
 90
       47
 70
   128
 43
0.0
 10
364.9647436177
 20
-40.2858552901
 10
365.6976852158
 20
-40.7617806766
 10
366.4749033954
 20
-41.3995237931
 10
367.1853622841
 20
-42.1351360218
 10
367.8256743288
 20
-42.9651151132
 10
368.3927891515
 20
-43.8855040926
 10
368.8840054025
 20
-44.8919163567
 10
369.2969812976
 20
-45.9795569671
 10
369.6297477888
 20
-47.143242424
 10
369.880721735
 20
-48.3774265231
 10
370.0487045852
 20
-49.6762290626
 10
370.1328955492
 20
-51.0334607025
 10
370.1328955492
 20
-52.4426525278
 10
370.0487045852
 20
-53.8970889858
 10
369.880721735
 20
-55.3898403958
 10
369.6297477888
 20
-56.9137928452
 10
369.2969812976
 20
-58.4616823148
 10
368.8840054025
 20
-60.0261347445
 10
368.3927891515
 20
-61.59969322
 10
367.8256743288
 20
-63.1748590364
 10
367.1853622841
 20
-64.7441266784
 10
366.4749033954
 20
-66.3000172798
 10
365.6976852158
 20
-67.8351174056
 10
364.8574113996
 20
-69.3421087087
 10
363.9580845803
 20
-70.8138135552
 10
363.0039931996
 20
-72.243216317
 10
361.9996812148
 20
-73.6235051938
 10
360.9499362444
 20
-74.9481018705
 10
359.8597599339
 20
-76.2106968754
 10
358.734347541
 20
-77.4052720126
 10
357.5790632399
 20
-78.5261328689
 10
356.399411475
 20
-79.5679390398
 10
355.2010139113
 20
-80.5257265609
 10
353.9895816116
 20
-81.3949315748
 10
352.7708877473
 20
-82.1714091261
 10
351.5507397345
 20
-82.8514629357
 10
350.3349523153
 20
-83.431848773
 10
349.1293191585
 20
-83.9098030176
 10
347.9395854064
 20
-84.2830463411
 10
346.7714209625
 20
-84.5498021687
 10
345.6303931622
 20
-84.7087972475
 10
344.5219382904
 20
-84.7592750467
 10
343.4513398496
 20
-84.7009946151
 10
342.4236989256
 20
-84.5342324795
 10
341.4439131139
 20
-84.2597872052
 10
340.516651495
 20
-83.8789619032
 10
339.9667760505
 20
-83.5882986524
  0
LWPOLYLINE
  5
E7
330
1F
100
AcDbEntity
  8
0
  6
Continuous
 62
     1
370
    25
100
AcDbPolyline
 90
       53
 70
   128
 43
0.0
 10
306.5540123711
 20
0.9392926195
 10
307.2658752766
 20
0.4893952928
 10
308.15842699
 20
-0.198365925
 10
308.9851505945
 20
-0.9852959735
 10
309.7429127351
 20
-1.8684097418
 10
310.4288368896
 20
-2.8443586419
 10
311.0403231241
 20
-3.9094389754
 10
311.5750507279
 20
-5.0596101854
 10
312.0309913838
 20
-6.2905100663
 10
312.4064170711
 20
-7.5974688336
 10
312.6999000652
 20
-8.9755304167
 10
312.9103313773
 20
-10.4194648181
 10
313.0369089001
 20
-11.9237969149
 10
313.0791558474
 20
-13.4828185329
 10
313.0369089001
 20
-15.0906174379
 10
312.9103313773
 20
-16.7410928318
 10
312.6999000652
 20
-18.4279860547
 10
312.4064170711
 20
-20.1448958902
 10
312.0309913838
 20
-21.8853119297
 10
311.5750507279
 20
-23.6426296868
 10
311.0403231241
 20
-25.4101842467
 10
310.4288368896
 20
-27.1812715589
 10
309.7429127351
 20
-28.9491716305
 10
308.9851505945
 20
-30.7071789437
 10
308.15842699
 20
-32.4486237485
 10
307.2658752766
 20
-34.1669032395
 10
306.3108843242
 20
-35.8554967655
 10
305.2970748105
 20
-37.5079992872
 10
304.2282939525
 20
-39.1181411492
 10
303.1085944332
 20
-40.679816975
 10
301.9422238646
 20
-42.187102397
 10
300.7336070072
 20
-43.6342795296
 10
299.4873293066
 20
-45.0158571203
 10
298.2081171365
 20
-46.3265956431
 10
296.9008239701
 20
-47.5615228864
 10
295.5704083182
 20
-48.7159542939
 10
294.2219166074
 20
-49.7855104529
 10
292.8604647407
 20
-50.7661338236
 10
291.4912168182
 20
-51.6541055852
 10
290.1193669453
 20
-52.4460576596
 10
288.7501190229
 20
-53.1389858989
 10
287.3886671561
 20
-53.7302613948
 10
286.0401754453
 20
-54.2176406247
 10
284.7097597934
 20
-54.5992744329
 10
283.402466627
 20
-54.8737157517
 10
282.1232544569
 20
-55.0399241628
 10
280.8769767563
 20
-55.0972681769
 10
279.668359899
 20
-55.0455303651
 10
278.5019893304
 20
-54.884907737
 10
277.382289811
 20
-54.6160094586
 10
276.3135089531
 20
-54.2398557091
 10
275.2996994394
 20
-53.7578727367
 10
275.0565713925
 20
-53.6217856213
  0
LWPOLYLINE
  5
E8
330
1F
100
AcDbEntity
  8
0
  6
Continuous
 62
     1
370
    25
100
AcDbPolyline
 90
       48
 70
   128
 43
0.0
 10
308.9537775341
 20
-0.8855495978
 10
309.2435634594
 20
-1.1800295417
 10
310.000362808
 20
-2.0620215369
 10
310.6854163666
 20
-3.0367285194
 10
311.2961255186
 20
-4.1004551561
 10
311.8301735044
 20
-5.249165453
 10
312.2855346412
 20
-6.4785017679
 10
312.6604822252
 20
-7.7838000196
 10
312.9535938002
 20
-9.1601098416
 10
313.1637564262
 20
-10.6022101714
 10
313.2901732641
 20
-12.1046308297
 10
313.3323675278
 20
-13.6616708665
 10
313.2901732641
 20
-15.2674273633
 10
313.1637564262
 20
-16.9158057958
 10
312.9535938002
 20
-18.6005547286
 10
312.6604822252
 20
-20.3152839717
 10
312.2855346412
 20
-22.0534874893
 10
311.8301735044
 20
-23.8085725817
 10
311.2961255186
 20
-25.5738815585
 10
310.6854163666
 20
-27.3427179734
 10
310.000362808
 20
-29.1083709588
 10
309.2435634594
 20
-30.8641448829
 10
308.4178895749
 20
-32.6033791206
 10
307.5264731922
 20
-34.3194746687
 10
306.5726952788
 20
-36.0059215217
 10
305.5601738781
 20
-37.6563237658
 10
304.4927509389
 20
-39.2644208705
 10
303.3744738757
 20
-40.8241135426
 10
302.2095863494
 20
-42.3294827373
 10
301.0025052178
 20
-43.7748196938
 10
299.7578106582
 20
-45.1546422847
 10
298.4802244345
 20
-46.463715166
 10
297.1745921174
 20
-47.6970722093
 10
295.8458666199
 20
-48.8500381733
 10
294.4990887712
 20
-49.9182353559
 10
293.1393665716
 20
-50.8976138209
 10
291.7718585238
 20
-51.7844564584
 10
290.4017518181
 20
-52.5754022238
 10
289.0342437703
 20
-53.2674507707
 10
287.6745215707
 20
-53.857974141
 10
286.327743722
 20
-54.3447335644
 10
284.9990182245
 20
-54.7258814052
 10
283.6933859074
 20
-54.9999753483
 10
282.4157996837
 20
-55.1659721231
 10
281.1711051241
 20
-55.2232432814
 10
279.9640239925
 20
-55.1715725343
 10
278.7991364662
 20
-55.0111538495
 10
277.8209094293
 20
-54.7828813666
  0
LWPOLYLINE
  5
E9
330
1F
100
AcDbEntity
  8
0
  6
Continuous
 62
     1
370
    25
100
AcDbPolyline
 90
       43
 70
   128
 43
0.0
 10
327.6232772594
 20
-18.9827073955
 10
328.1787213563
 20
-19.5717752865
 10
328.8200594134
 20
-20.4030822423
 10
329.3880830275
 20
-21.3249443237
 10
329.8800855807
 20
-22.3329680824
 10
330.2937226545
 20
-23.4223498346
 10
330.6270225667
 20
-24.5878980954
 10
330.8783969079
 20
-25.8240590553
 10
331.0466484443
 20
-27.1249409157
 10
331.1309750685
 20
-28.4843451158
 10
331.1309750685
 20
-29.8957930444
 10
331.0466484443
 20
-31.3525586924
 10
330.8783969079
 20
-32.8476996417
 10
330.6270225667
 20
-34.3740912383
 10
330.2937226545
 20
-35.9244593866
 10
329.8800855807
 20
-37.4914163388
 10
329.3880830275
 20
-39.0674941541
 10
328.8200594134
 20
-40.6451823406
 10
328.1787213563
 20
-42.2169624557
 10
327.4671258198
 20
-43.7753442269
 10
326.6886643082
 20
-45.3129005312
 10
325.847044427
 20
-46.8223054172
 10
324.9462780294
 20
-48.2963668031
 10
323.990658167
 20
-49.7280572741
 10
322.984738675
 20
-51.1105562855
 10
321.933313099
 20
-52.4372744959
 10
320.8413916456
 20
-53.7018914079
 10
319.7141774749
 20
-54.8983781798
 10
318.5570433223
 20
-56.0210324142
 10
317.3755028516
 20
-57.0645083844
 10
316.1751867832
 20
-58.023829294
 10
314.9618150699
 20
-58.8944246323
 10
313.7411699794
 20
-59.6721472347
 10
312.5190685178
 20
-60.3532876813
 10
311.301334441
 20
-60.9346041425
 10
310.0937710903
 20
-61.4133228515
 10
308.9021324982
 20
-61.7871639102
 10
307.7320977879
 20
-62.0543469424
 10
306.5892431852
 20
-62.2135966048
 10
305.4790141944
 20
-62.2641540861
 10
304.4067015622
 20
-62.2057803371
 10
303.3774149355
 20
-62.0387530257
 10
302.8449402125
 20
-61.9046969529
  0
LWPOLYLINE
  5
EA
330
1F
100
AcDbEntity
  8
0
  6
Continuous
 62
     1
370
    25
100
AcDbPolyline
 90
       45
 70
   128
 43
0.0
 10
327.2546793616
 20
-18.6254069839
 10
327.7262104002
 20
-19.0303794676
 10
328.4366692888
 20
-19.7659916963
 10
329.0769813336
 20
-20.5959707877
 10
329.6440961562
 20
-21.5163597671
 10
330.1353124073
 20
-22.5227720312
 10
330.5482883024
 20
-23.6104126416
 10
330.8810547935
 20
-24.7740980985
 10
331.1320287397
 20
-26.0082821975
 10
331.3000115899
 20
-27.307084737
 10
331.384202554
 20
-28.664316377
 10
331.384202554
 20
-30.0735082023
 10
331.3000115899
 20
-31.5279446603
 10
331.1320287397
 20
-33.0206960703
 10
330.8810547935
 20
-34.5446485197
 10
330.5482883024
 20
-36.0925379893
 10
330.1353124073
 20
-37.656990419
 10
329.6440961562
 20
-39.2305488944
 10
329.0769813336
 20
-40.8057147108
 10
328.4366692888
 20
-42.3749823529
 10
327.7262104002
 20
-43.9308729542
 10
326.9489922206
 20
-45.4659730801
 10
326.1087184044
 20
-46.9729643831
 10
325.209391585
 20
-48.4446692297
 10
324.2553002044
 20
-49.8740719914
 10
323.2509882196
 20
-51.2543608683
 10
322.2012432492
 20
-52.5789575449
 10
321.1110669387
 20
-53.8415525499
 10
319.9856545457
 20
-55.0361276871
 10
318.8303702447
 20
-56.1569885434
 10
317.6507184797
 20
-57.1987947143
 10
316.452320916
 20
-58.1565822354
 10
315.2408886163
 20
-59.0257872493
 10
314.0221947521
 20
-59.8022648006
 10
312.8020467392
 20
-60.4823186102
 10
311.58625932
 20
-61.0627044474
 10
310.3806261632
 20
-61.5406586921
 10
309.1908924111
 20
-61.9139020156
 10
308.0227279673
 20
-62.1806578432
 10
306.881700167
 20
-62.3396529219
 10
305.7732452951
 20
-62.3901307211
 10
304.7026468543
 20
-62.3318502896
 10
303.6750059303
 20
-62.165088154
 10
302.6952201186
 20
-61.8906428797
 10
302.3511958091
 20
-61.7641794606
  0
ENDSEC
  0
SECTION
  2
OBJECTS
  0
DICTIONARY
  5
C
330
0
100
AcDbDictionary
281
     1
  3
ACAD_GROUP
350
D
  3
ACAD_LAYOUT
350
1A
  3
ACAD_MLINESTYLE
350
17
  3
ACAD_PLOTSETTINGS
350
19
  3
ACAD_PLOTSTYLENAME
350
E
  3
ACAD_SCALELIST
350
47
  0
DICTIONARY
  5
D
102
{ACAD_REACTORS
330
C
102
}
330
C
100
AcDbDictionary
281
     1
  0
DICTIONARY
  5
1A
102
{ACAD_REACTORS
330
C
102
}
330
C
100
AcDbDictionary
281
     1
  3
Layout1
350
1E
  3
Layout2
350
26
  3
Model
350
22
  0
DICTIONARY
  5
17
102
{ACAD_REACTORS
330
C
102
}
330
C
100
AcDbDictionary
281
     1
  3
Standard
350
18
  0
DICTIONARY
  5
19
102
{ACAD_REACTORS
330
C
102
}
330
C
100
AcDbDictionary
281
     1
  0
ACDBDICTIONARYWDFLT
  5
E
102
{ACAD_REACTORS
330
C
102
}
330
C
100
AcDbDictionary
281
     1
  3
Normal
350
F
100
AcDbDictionaryWithDefault
340
F
  0
DICTIONARY
  5
47
102
{ACAD_REACTORS
330
C
102
}
330
C
100
AcDbDictionary
281
     1
  3
A0
350
48
  3
A1
350
49
  3
A2
350
4A
  3
A3
350
4B
  3
A4
350
4C
  3
A5
350
4D
  3
A6
350
4E
  3
A7
350
4F
  3
A8
350
50
  3
A9
350
51
  3
B0
350
52
  3
B1
350
53
  3
B2
350
54
  3
B3
350
55
  3
B4
350
56
  3
B5
350
57
  3
B6
350
58
  3
B7
350
59
  3
B8
350
5A
  3
B9
350
5B
  3
C0
350
5C
  3
C1
350
5D
  3
C2
350
5E
  3
C3
350
5F
  3
C4
350
60
  3
C5
350
61
  3
C6
350
62
  3
C7
350
63
  3
C8
350
64
  3
C9
350
65
  3
D0
350
66
  3
D1
350
67
  3
D2
350
68
  0
LAYOUT
  5
1E
102
{ACAD_REACTORS
330
1A
102
}
330
1A
100
AcDbPlotSettings
  1

  2
none_device
  4

  6

 40
0.0
 41
0.0
 42
0.0
 43
0.0
 44
0.0
 45
0.0
 46
0.0
 47
0.0
 48
0.0
 49
0.0
140
0.0
141
0.0
142
1.0
143
1.0
 70
   688
 72
     1
 73
     0
 74
     5
  7

 75
    16
147
1.0
148
0.0
149
0.0
100
AcDbLayout
  1
Layout1
 70
     1
 71
     1
 10
0.0
 20
0.0
 11
420.0
 21
297.0
 12
0.0
 22
0.0
 32
0.0
 14
1.0000000000E+20
 24
1.0000000000E+20
 34
1.0000000000E+20
 15
-1.0000000000E+20
 25
-1.0000000000E+20
 35
-1.0000000000E+20
146
0.0
 13
0.0
 23
0.0
 33
0.0
 16
1.0
 26
0.0
 36
0.0
 17
0.0
 27
1.0
 37
0.0
 76
     0
330
1B
  0
LAYOUT
  5
26
102
{ACAD_REACTORS
330
1A
102
}
330
1A
100
AcDbPlotSettings
  1

  2
none_device
  4

  6

 40
0.0
 41
0.0
 42
0.0
 43
0.0
 44
0.0
 45
0.0
 46
0.0
 47
0.0
 48
0.0
 49
0.0
140
0.0
141
0.0
142
1.0
143
1.0
 70
   688
 72
     1
 73
     0
 74
     5
  7

 75
    16
147
1.0
148
0.0
149
0.0
100
AcDbLayout
  1
Layout2
 70
     1
 71
     2
 10
0.0
 20
0.0
 11
0.0
 21
0.0
 12
0.0
 22
0.0
 32
0.0
 14
0.0
 24
0.0
 34
0.0
 15
0.0
 25
0.0
 35
0.0
146
0.0
 13
0.0
 23
0.0
 33
0.0
 16
1.0
 26
0.0
 36
0.0
 17
0.0
 27
1.0
 37
0.0
 76
     0
330
23
  0
LAYOUT
  5
22
102
{ACAD_REACTORS
330
1A
102
}
330
1A
100
AcDbPlotSettings
  1

  2
none_device
  4
Letter_(8.50_x_11.00_Inches)
  6

 40
6.35
 41
6.35
 42
6.35000508
 43
6.35000508
 44
215.9
 45
279.4
 46
0.0
 47
0.0
 48
0.0
 49
0.0
140
0.0
141
0.0
142
1.0
143
1.0
 70
  1712
 72
     1
 73
     0
 74
     0
  7

 75
     0
147
1.0
148
0.0
149
0.0
100
AcDbLayout
  1
Model
 70
     1
 71
     0
 10
0.0
 20
0.0
 11
279.4
 21
215.9
 12
0.0
 22
0.0
 32
0.0
 14
0.0
 24
0.0
 34
0.0
 15
279.4
 25
215.9
 35
0.0
146
0.0
 13
0.0
 23
0.0
 33
0.0
 16
1.0
 26
0.0
 36
0.0
 17
0.0
 27
1.0
 37
0.0
 76
     0
330
1F
331
29
  0
MLINESTYLE
  5
18
102
{ACAD_REACTORS
330
17
102
}
330
17
100
AcDbMlineStyle
  2
Standard
 70
     0
  3

 62
   256
 51
90.0
 52
90.0
 71
     2
 49
0.5
 62
   256
  6
BYLAYER
 49
-0.5
 62
   256
  6
BYLAYER
  0
ACDBPLACEHOLDER
  5
F
102
{ACAD_REACTORS
330
E
102
}
330
E
  0
SCALE
  5
48
102
{ACAD_REACTORS
330
47
102
}
330
47
100
AcDbScale
 70
     0
300
1:1
140
1.0
141
1.0
290
     1
  0
SCALE
  5
49
102
{ACAD_REACTORS
330
47
102
}
330
47
100
AcDbScale
 70
     0
300
1:2
140
1.0
141
2.0
290
     0
  0
SCALE
  5
4A
102
{ACAD_REACTORS
330
47
102
}
330
47
100
AcDbScale
 70
     0
300
1:4
140
1.0
141
4.0
290
     0
  0
SCALE
  5
4B
102
{ACAD_REACTORS
330
47
102
}
330
47
100
AcDbScale
 70
     0
300
1:5
140
1.0
141
5.0
290
     0
  0
SCALE
  5
4C
102
{ACAD_REACTORS
330
47
102
}
330
47
100
AcDbScale
 70
     0
300
1:8
140
1.0
141
8.0
290
     0
  0
SCALE
  5
4D
102
{ACAD_REACTORS
330
47
102
}
330
47
100
AcDbScale
 70
     0
300
1:10
140
1.0
141
10.0
290
     0
  0
SCALE
  5
4E
102
{ACAD_REACTORS
330
47
102
}
330
47
100
AcDbScale
 70
     0
300
1:16
140
1.0
141
16.0
290
     0
  0
SCALE
  5
4F
102
{ACAD_REACTORS
330
47
102
}
330
47
100
AcDbScale
 70
     0
300
1:20
140
1.0
141
20.0
290
     0
  0
SCALE
  5
50
102
{ACAD_REACTORS
330
47
102
}
330
47
100
AcDbScale
 70
     0
300
1:30
140
1.0
141
30.0
290
     0
  0
SCALE
  5
51
102
{ACAD_REACTORS
330
47
102
}
330
47
100
AcDbScale
 70
     0
300
1:40
140
1.0
141
40.0
290
     0
  0
SCALE
  5
52
102
{ACAD_REACTORS
330
47
102
}
330
47
100
AcDbScale
 70
     0
300
1:50
140
1.0
141
50.0
290
     0
  0
SCALE
  5
53
102
{ACAD_REACTORS
330
47
102
}
330
47
100
AcDbScale
 70
     0
300
1:100
140
1.0
141
100.0
290
     0
  0
SCALE
  5
54
102
{ACAD_REACTORS
330
47
102
}
330
47
100
AcDbScale
 70
     0
300
2:1
140
2.0
141
1.0
290
     0
  0
SCALE
  5
55
102
{ACAD_REACTORS
330
47
102
}
330
47
100
AcDbScale
 70
     0
300
4:1
140
4.0
141
1.0
290
     0
  0
SCALE
  5
56
102
{ACAD_REACTORS
330
47
102
}
330
47
100
AcDbScale
 70
     0
300
8:1
140
8.0
141
1.0
290
     0
  0
SCALE
  5
57
102
{ACAD_REACTORS
330
47
102
}
330
47
100
AcDbScale
 70
     0
300
10:1
140
10.0
141
1.0
290
     0
  0
SCALE
  5
58
102
{ACAD_REACTORS
330
47
102
}
330
47
100
AcDbScale
 70
     0
300
100:1
140
100.0
141
1.0
290
     0
  0
SCALE
  5
59
102
{ACAD_REACTORS
330
47
102
}
330
47
100
AcDbScale
 70
     0
300
1/128" = 1'-0"
140
0.0078125
141
12.0
290
     0
  0
SCALE
  5
5A
102
{ACAD_REACTORS
330
47
102
}
330
47
100
AcDbScale
 70
     0
300
1/64" = 1'-0"
140
0.015625
141
12.0
290
     0
  0
SCALE
  5
5B
102
{ACAD_REACTORS
330
47
102
}
330
47
100
AcDbScale
 70
     0
300
1/32" = 1'-0"
140
0.03125
141
12.0
290
     0
  0
SCALE
  5
5C
102
{ACAD_REACTORS
330
47
102
}
330
47
100
AcDbScale
 70
     0
300
1/16" = 1'-0"
140
0.0625
141
12.0
290
     0
  0
SCALE
  5
5D
102
{ACAD_REACTORS
330
47
102
}
330
47
100
AcDbScale
 70
     0
300
3/32" = 1'-0"
140
0.09375
141
12.0
290
     0
  0
SCALE
  5
5E
102
{ACAD_REACTORS
330
47
102
}
330
47
100
AcDbScale
 70
     0
300
1/8" = 1'-0"
140
0.125
141
12.0
290
     0
  0
SCALE
  5
5F
102
{ACAD_REACTORS
330
47
102
}
330
47
100
AcDbScale
 70
     0
300
3/16" = 1'-0"
140
0.1875
141
12.0
290
     0
  0
SCALE
  5
60
102
{ACAD_REACTORS
330
47
102
}
330
47
100
AcDbScale
 70
     0
300
1/4" = 1'-0"
140
0.25
141
12.0
290
     0
  0
SCALE
  5
61
102
{ACAD_REACTORS
330
47
102
}
330
47
100
AcDbScale
 70
     0
300
3/8" = 1'-0"
140
0.375
141
12.0
290
     0
  0
SCALE
  5
62
102
{ACAD_REACTORS
330
47
102
}
330
47
100
AcDbScale
 70
     0
300
1/2" = 1'-0"
140
0.5
141
12.0
290
     0
  0
SCALE
  5
63
102
{ACAD_REACTORS
330
47
102
}
330
47
100
AcDbScale
 70
     0
300
3/4" = 1'-0"
140
0.75
141
12.0
290
     0
  0
SCALE
  5
64
102
{ACAD_REACTORS
330
47
102
}
330
47
100
AcDbScale
 70
     0
300
1" = 1'-0"
140
1.0
141
12.0
290
     0
  0
SCALE
  5
65
102
{ACAD_REACTORS
330
47
102
}
330
47
100
AcDbScale
 70
     0
300
1-1/2" = 1'-0"
140
1.5
141
12.0
290
     0
  0
SCALE
  5
66
102
{ACAD_REACTORS
330
47
102
}
330
47
100
AcDbScale
 70
     0
300
3" = 1'-0"
140
3.0
141
12.0
290
     0
  0
SCALE
  5
67
102
{ACAD_REACTORS
330
47
102
}
330
47
100
AcDbScale
 70
     0
300
6" = 1'-0"
140
6.0
141
12.0
290
     0
  0
SCALE
  5
68
102
{ACAD_REACTORS
330
47
102
}
330
47
100
AcDbScale
 70
     0
300
1'-0" = 1'-0"
140
12.0
141
12.0
290
     0
  0
ENDSEC
  0
EOF
